Yoshimi Battles The Pink Robots Pt 2

Bass tab

"Yoshimi Battles The Pink Robots Part 2"
The Flaming Lips
from "Yoshimi Battles The Pink Robots"
tabbed by arlen b, 04/22/03
website: http://www.geocities.com/kingoftheeskimos
(Tab uploaded by Adam D with permission to the Flaming Lips Hub wiki, http://flaminglips.wikidot.com)

tuning: tune the low E down to an A (hope you're using a thick guage :) )

intro: (not quite right; don't know how to pull this off properly...)
edit: it's probably synth or airsynth effects

G----------------------------------------------------------------------
D----------------------------------------------------------------------
A----------------------------------------------------------------------
A-7p0h7p0--------------------------------------------------------------

main bass riff [repeated throughout song, both descending (as transcribed),
and ascending (reverse)]:

G-12--12-11--11-9--9-7--7-5--------------------------------------------
D----------------------------9--9-7--7-5--5-4--4-----------------------
A------------------------------------------------7--5--5-3--3-2--2-0--0
A----------------------------------------------------------------------

G----------------------------------------------------------------------
D----------------------------------------------------------------------
A----------------------------------------------------------------------
A-10--9--9-7--7-5--5-3--3-2--------------------------------------------

ascending riff that appears towards the end of the song:

G----------------------------------------------------------------------
D--------------------------------------------------------------------5-
A--------------------------------------0--0-2--2-3--3-5--5-7--7-9--9---
A-0--0-2--2-3--3-5--5-7--7-9--9-10--10---------------------------------

G-------------5--5-7--7-9--11\9-11\9-----------------------------------
D-5-7--7-9--9----------------------------------------------------------
A----------------------------------------------------------------------
A----------------------------------------------------------------------

If you think you can improve on this tab, please join us
or login and edit this page!

Unless otherwise stated, the content of this page is licensed under Creative Commons Attribution-ShareAlike 3.0 License