Turn It On

Guitar tab

"Turn It On"
The Flaming Lips
from "Transmissions From The Sattelite Heart"
tabbed by arlen b, 05/22/03
website: http://www.geocities.com/kingoftheeskimos/guitartabs.html
(Tab uploaded by Adam D with permission to the Flaming Lips Hub wiki, http://flaminglips.wikidot.com)

standard tuning

chords used:
   D    A    G
e--2----0----3---------------------------------------------------------
B--3----2----3---------------------------------------------------------
G--2----2----0---------------------------------------------------------
D--0----2----0---------------------------------------------------------
A-------0----2---------------------------------------------------------
E------------3---------------------------------------------------------

intro: D    A    G    D  (+ arpeggios)

D                       A      G                         D
put your face up to the window / tell me all about your 'gay folks'
it feels better with you in it / if you're nervous use the pay phone

then an electric guitar w/ distortion comes in:
e----------------------------------------------------------------------
B----------------------------------------------------------------------
G----------------------------------------------------------------------
D--7--7---x-6-7--7-----------------------------------------------------
A--5--5---x-4-5--5--7--7---x-6-7--7-6-5--5---x--5-5--5------------------
E-------------------5--5---x-4-5--5-4-3--3---x--3-3--3------------------

put your face where we can see it / put it on a show on cable
you can really show it all there / turn it on when you are able

        G           D
turn it on, turn it on and all the way up
turn it on, in your houses when you wake up
turn it on, when you ain't got no relation

   A                                 D
to all those other stations, turn it on

put your life into a bubble / we can pick you up on radar
hit a sattelite with feeling / give the people what they paid for

turn it on, turn it on and all the way up
turn it on, in your houses when you wake up
turn it on, when you ain't got no relation
to all those other stations, turn it on

turn it on, turn it on and all the way up
turn it on, in your houses when you wake up
turn it on, when you ain't got no relation
to all those other stations, turn it on

turn it on, turn it on and all the way up
turn it on, in your houses when you wake up
turn it on, when you ain't got no relation
to all those other stations, turn it on

If you think you can improve on this tab, please join us
or login and edit this page!

Unless otherwise stated, the content of this page is licensed under Creative Commons Attribution-ShareAlike 3.0 License