There You Are

Guitar tab

"There You Are" (Jesus Song No. 7)
The Flaming Lips
From "In A Priest Driven Ambulance" / "The Day They Shot A Hole In The Jesus Egg"
tabbed by arlen b, 05/13/03, coda by Stonebeard
websites: http://www.geocities.com/kingoftheeskimos
http://www.ultimate-guitar.com/tabs/
(Tab uploaded by Adam D with permission to the Flaming Lips Hub wiki, http://flaminglips.wikidot.com)

standard tuning

chords used:
   Bm  F#m    A    G    D   F#
e--2----2-----0----3----2---2----------------------------------------
B--3----2-----2---0/3---3-- 2----------------------------------------
G--4----2-----2----0----2---3----------------------------------------
D--4----4-----2----0----0---4----------------------------------------
A--2----4-----0----2--------4----------------------------------------
E--2----2----------3--------2----------------------------------------

*note* the beginning of this song is sort of tricky to tab; the melody is
played (primarily) on the G string, while the A and D strings are played (open) 
intermittently (and not neccesarily simultaneously) inbetween notes on the G 
string. i'll tab out the melody on the G string, and let you listen to the 
record for timing for the D and A strings.

intro:       verse:
e-----------|----------------------------------7-----------------------
B-----------|------------------------------6---6-----------------------
G--4--2-0-2-|-4--2---4--2--4--2--4-2-4-6-7---7----7-6---7-6-4-6-4---0-2
D--0--------|-0--------------------------------------------------------
A--0--------|-0--------------------------------------------------------
E-----------|----------------------------------------------------------

There you are
And you stand in the rain
And the rain fills your brain
And it makes you think that God
Was fucked up when he made this town 

There you stand
With your bleedin' hands
And you don't understand
Why you work so goddamn hard
To be anything at all 

There you are
And you drive in your car
And you wish for the stars
And you end up face down in the road
Dead as fuck

then the chords for the outro (would this be called a "coda"??):

Bm  F#m  A  Bm  G  D  F#

Outro solo:

G---4~--4---4/6--6~---6---6/9--9~---9---12\11--11~---11---14~---14  x2

---12\11--11~--11---9/11---11~---11---9/11--11~---11--------------   

G---14---12h14p12--12---11---11h12p11--11---9----11---9---4---6----

---7---9---16---18b19r18--16---14~---18b19r18-16---14~------------
and that's it.

If you think you can improve on this tab, please join us
or login and edit this page!

Unless otherwise stated, the content of this page is licensed under Creative Commons Attribution-ShareAlike 3.0 License