The W.A.N.D

Guitar tab

Artist: Flaming Lips
Album: At War With The Mystics
Track: The W.A.N.D
Tabbed By: excalibur672 
Email: excalibur627@hotmail.com

-------------------------------------------------------------------------------
                 The W.A.N.D - Flaming Lips
-------------------------------------------------------------------------------
 Tabbed By: excalibur672 
 Email: excalibur627@hotmail.com

Standard Tuning

Intro:
Riff A
e|---------------------------------------------------------|
B|---------------------------------------------------------|
G|---------------------------------------------------------|
D|---------------------------------------------------------|
A|-5-5-4h5p4-----5-5-4h5p4------5-5-4h5p4----3-3-2h3p2-----|
E|-----------5v------------5v-------------5v------------3v-| x 2

Riff B
e|-----------------------------|
B|-----------------------------|
G|-----------------------------|
D|-----------------------------|
A|-8-8-8-5--8-8-8-7~~----------|
E|-----------------------------| x 2

Main riff:
e|---------------------------------------------------|
B|---------------------------------------------------|
G|---------------------------------------------------|
D|---------------------------------------------------|
A|--5-5-4h5p4----5-5-4h5p4---3-3-3h2p3---3-3-3h2p3---|
E|------------5------------5----------3------------3-| x 4

Riff B x 2

Fill A
e|---------------------------------|
B|---------------------------------|
G|---------------------------------|
D|---------------------------------|
A|-5-5-4h5p4-----------3-3-2h3p2---|
E|-----------5-------------------3-|

Main Riff x 4

Riff B x 1

Intro Riff A x 2

Bridge:
e|------------------------------------------|
B|------------------------------------------|
G|------------------------------------------|
D|------------------------------------------|
A|-8- x 16 --10 x 16 -0/-12 x 15 -13 x 16 --|
E|------------------------------------------|

Riff B x 2 

| /  slide up
| \  slide down
| h  hammer-on
| p  pull-off
| ~  vibrato
| +  harmonic
| x  Mute note
===============================================================================

Bass tab

Artist: Flaming Lips
Album: At War With The Mystics
Track: The W.A.N.D
Tabbed By: bassgasm

Intro- Play nothing.

Main Riff
G-----------|
D-----------|
A-5-5-5p3---|
E--------5--|

2nd Riff
G-----------|
D-----------|
A-3-3-3p1---|
E--------3--|

3rd Riff
G------------------|
D------------------|
A-8-8-8-5--8-8-8-7-|
E------------------|

That’s it. The timing is really easy to 
figure out, just listen to the song. 
Have fun with this one.

If you think you can improve on this tab, please join us
or login and edit this page!

Unless otherwise stated, the content of this page is licensed under Creative Commons Attribution-ShareAlike 3.0 License