The Magician Vs The Headache

Guitar tab

"The Magician vs. The Headache"
The Flaming Lips
From "Hit To Death In The Future Head"
Tabbed by unknown
Uploaded to The Flaming Lips Live Hub Wiki by SamW27, 04/15/11

Main Riff:

   E
e--------------------------------------------------
B---10-9--------------------10-9-------------------
G---------11----9-11-9-----------11----9-11-9------
D--------------------------------------------------
A--------------------------------------------------
E--------------------------------------------------

   A                  G#m      A
e-------------------------------------------------
B-------------------------------------------------
G-------------------------------------------------
D---7-6----------------6--------------------------
A---------9----7-9-7-----9-----7-9-7--------------
E-------------------------------------------------

E                                  A        G#m      A
Sermon's over, but can you feel it now?

       E  
On the ground

E          A              G#m   A 
   No, it never takes you very long (2x)

E                                   A      G#m       A
Sometimes I come home and there's a monkey

           E
's puttin' down

E            A          G#m        A
He's makin' love to the hole in my head (2x)

If you think you can improve on this tab, please join us
or login and edit this page!

Unless otherwise stated, the content of this page is licensed under Creative Commons Attribution-ShareAlike 3.0 License