Suddenly Everything Has Changed

Guitar tab

"Suddenly Everything Has Changed"
The Flaming Lips
from "The Soft Bulletin"
tabbed by jd and SamW27
(Tab uploaded by SamW27 to the Flaming Lips Hub wiki, http://flaminglips.wikidot.com)

standard tuning

chords used:
   A    E    D   F#m    Dm   C   Gmaj7   F    G   Bb  Gm  
e--5----7----5----9------5---3------2----1----3----1---3----
B--5----9----7----10-----6---5------3----1----3----3---3----
G--6----9----7----11-----7---5------4----2----4----3---3----
D--7----9----7----11-----7---5------5----3----5----3---5----
A--7----7----5----9------5---3------2----3----5----1---5----
E--5--------------------------------2----1----3--------3----

  Am7   Eb  Ebm   C#  Bbm  F#   B  Bm  D/F# E6  F6   C#6
e--0----6-----6----4---1----2---2---2---2----0---x----x
B--1----8-----7----6---2----2---4---3---3----2---3----6
G--0----8-----8----6---3----2---4---4---2----1---2----8
D--2----8-----8----6---3----4---4---4---0----1---3----6
A--0----6-----6----4---1----4---2---2--------2---3----4
E---------------------------2-----------2----0---x----x

Intro: A/E-F#m/F#m-D/D-E/A

A               E          F#m    
Putting all the vegetables away,
         D             E             A
That you bought at the grocery store today,
            E
And it goes fast,
    (E6)         D/F#
You think of the past,
(A)     (E)             (Dm)
Suddenly everything has changed,

[Orchestra: Dm Dm C Am (2x)]

Interlude: F D Am7 Gmaj7 F G A E G F

Bb               F         Gm
Driving home the sky accelerates,
        Eb                F         Bb
And the clouds all form a geometric shape,
            F
And it goes fast,
    (F6)         Gm
You think of the past,
(Bb)     (F)           (Ebm)
Suddenly everything has changed,

[Orchestra: Dm Dm C Am (2x)]

F#    D#m

(F#)            C#                 Ebm          
Putting all the clothes you washed away,
          B              C#             Ebm
As you're folding up the shirts you hesitate,
             C#
Then it goes fast,
    C#6          Ebm
You Think of the past,
     F#      C#             Bm
And Suddenly everything has changed

If you think you can improve on this tab, please join us
or login and edit this page!

Unless otherwise stated, the content of this page is licensed under Creative Commons Attribution-ShareAlike 3.0 License