Sleeping On The Roof

Guitar tab

"Sleeping On The Roof"
The Flaming Lips
from "The Soft Bulletin"
tabbed by arlen b, 05/22/03
website: http://www.geocities.com/kingoftheeskimos/guitartabs.html
(Tab uploaded by Adam D with permission to the Flaming Lips Hub wiki, http://flaminglips.wikidot.com)

standard tuning

chords used:
   E    A   C#m
e--0----0----4---------------------------------------------------------
B--0----2----5---------------------------------------------------------
G--1----2----6---------------------------------------------------------
D--2----2----6---------------------------------------------------------
A--2----0----4---------------------------------------------------------
E--0-------------------------------------------------------------------

intro:
  G#m G#madd9
e--4---4---------------------------------------------------------------
B--4---4---------------------------------------------------------------
G--4---4---------------------------------------------------------------
D--6---6---------------------------------------------------------------
A--6---4---------------------------------------------------------------
E--4---4---------------------------------------------------------------

the rest of the song is this riff...
e--11---------9------------11-----12-----------------------------------
B------12--9-----9--7--12------9---------------------------------------
G----------------------------------------------------------------------
D----------------------------------------------------------------------
A----------------------------------------------------------------------
E----------------------------------------------------------------------

...played over these chords: E    A    E    C#m    A    E

If you think you can improve on this tab, please join us
or login and edit this page!

Unless otherwise stated, the content of this page is licensed under Creative Commons Attribution-ShareAlike 3.0 License