Oh My Pregnant Head

Guitar tab

"Oh My Pregnant Head"
The Flaming Lips
from "Transmissions From The Sattelite Heart"
tabbed by arlen b, 05/22/03
website: http://www.geocities.com/kingoftheeskimos/guitartabs.html
(Tab uploaded by Adam D with permission to the Flaming Lips Hub wiki, http://flaminglips.wikidot.com)

standard tuning

chords used:
   Gm   G    D
e--3----3----2---------------------------------------------------------
B--3----3----3---------------------------------------------------------
G--3----0----2---------------------------------------------------------
D--5----0----0---------------------------------------------------------
A--5----2--------------------------------------------------------------
E--3----3--------------------------------------------------------------

intro: Gm

the chords then are just G and D, with these arpeggiations:
   G                    D
e--7-----10-------------5-2---0-2--------------------------------------
B----8------8---------------3-----3------------------------------------
G------7------7--------------------------------------------------------
D----------------------------------------------------------------------
A----------------------------------------------------------------------
E----------------------------------------------------------------------

lyrics (copied from sing365.com's flips lyrics):

when will you shut your mouth
stop all the vibrate
birds flying out of a mountain
somewhere the snow cools my fever
i just have stumps left for fingers
wonderin' can you still play guitar?

just like a baby
just like the smoke rings
labia in the sunlight
when will you stop all yours buzzing
smow crushing hummingbird
(all day)
somewhere the star burns the universe
gold eagle paints in my fingers
(all day)
can of spaghetti diseases
hopin that you can still play guitar?
just like a baby
just like the smoke rings
labia in the sunlight
labia in the sunlight
repeat 6 times

If you think you can improve on this tab, please join us
or login and edit this page!

Unless otherwise stated, the content of this page is licensed under Creative Commons Attribution-ShareAlike 3.0 License