Lucifer Rising

Guitar tab

"Lucifer Rising"
The Flaming Lips
From "In A Priest Driven Ambulance" / "The Day They Shot A Hole In The Jesus Egg"
tabbed SamW27, 03/22/11

Drop D Tuning

Riff 1:
e----------------------------------------------------------------------
B----------------------------------------------------------------------
G----------------------------------------------------------------------     
D--(5)-(7)-(0)-(0)-(5)-(7)--x--x-------------------------------------
A---5---7---0---0---5---7---x--x-------------------------------------
D---5---7---0---0---5---7---x--x-------------------------------------

Riff 2 (Strumming Not Shown):
e-----------------------------------------------------------------------
B----------------------------------------------------------------------
G----------------------------------------------------------------------     
D--(5)-(5)--(3)-(3)---------------------------------------------------
A---5---5----3---3----------------------------------------------------
D---5---5----3---3----------------------------------------------------

Intro and Verse: 
Riff 1 repeats

Chorus:
Riff 2 followed by Riff 1
Riff 2 followed by Riff 1
Riff 1 (with rest instead of mutes) x4

If you think you can improve on this tab, please join us
or login and edit this page!

Unless otherwise stated, the content of this page is licensed under Creative Commons Attribution-ShareAlike 3.0 License