Free Radicals

Guitar tab

Artist: The Flaming Lips
Album: At War With the Mystics
Track: Free Radicals
Tabbed by: Duncan from C-Town

I just saw the Lips the other day (@ Waka) and they played this.
Crank up yer distortion or fuzz to play.  I was too amazed by this crazy ass song to
Steve, but this is how it sounds.  It was the best show I've ever seen, fo reals. my 
is free2rhymein03@yahoo.com

----------------------------------------------------------------|
------------------------x-x-xx-x--------------------------------|
------------------------x-x-xx-x--------------------------------|
-9-9------------7-7-----x-x-xx-x-2-2---------------------2-2----|
-9-9------------7-7--------------2-2-----7p5-----5h7-----2-2----|
-7-7------------5-5--------------0-0--------7p6p5--------0-0----|

-------------|
-------------|
-------------|
-------------|
-7p5-----5h7-|
----7p6p5----|    That was the verses, and the chorus is:

--(7)------(5)---------(0)-------------------|
--(7)------(5)---------(0)-------------------|
--(8)------(6)---------(1)-------------------|
---9--------7-----------2------2-2-----------|
---9--------7-----------2------2-2-----------|
---7--------5-----------0------0-0-----------|
 think...  not...     fact...      fanatical.

The notes in parenthesis are if you wanna round out your sound or if you don't have a
 Just strum away.

If you think you can improve on this tab, please join us
or login and edit this page!

Unless otherwise stated, the content of this page is licensed under Creative Commons Attribution-ShareAlike 3.0 License